ISO-10303-21;
HEADER;
FILE_DESCRIPTION (( 'STEP AP203' ),
    '1' );
FILE_NAME ('QM-CAHWP-15-450-650-M.STEP',
    '2021-01-05T02:34:45',
    ( '' ),
    ( '' ),
    'SwSTEP 2.0',
    'SolidWorks 2020',
    '' );
FILE_SCHEMA (( 'CONFIG_CONTROL_DESIGN' ));
ENDSEC;

DATA;
#1 = ORIENTED_EDGE ( 'NONE', *, *, #27, .T. ) ;
#2 = DIRECTION ( 'NONE',  ( -1.000000000000000000, -0.000000000000000000, -0.000000000000000000 ) ) ;
#3 = CARTESIAN_POINT ( 'NONE',  ( -0.5000000000000004441, 0.000000000000000000, 0.000000000000000000 ) ) ;
#4 = ORIENTED_EDGE ( 'NONE', *, *, #98, .T. ) ;
#5 = DIRECTION ( 'NONE',  ( 1.000000000000000000, 0.000000000000000000, 0.000000000000000000 ) ) ;
#6 = CARTESIAN_POINT ( 'NONE',  ( 3.000000000000000000, 0.000000000000000000, 0.000000000000000000 ) ) ;
#7 = CARTESIAN_POINT ( 'NONE',  ( -3.000000000000000000, 0.000000000000000000, 0.000000000000000000 ) ) ;
#8 = DIRECTION ( 'NONE',  ( -1.000000000000000000, -0.000000000000000000, -0.000000000000000000 ) ) ;
#9 = DIRECTION ( 'NONE',  ( -1.000000000000000000, -0.000000000000000000, -0.000000000000000000 ) ) ;
#10 = DIRECTION ( 'NONE',  ( 0.000000000000000000, 0.000000000000000000, 1.000000000000000000 ) ) ;
#11 = DIRECTION ( 'NONE',  ( 0.000000000000000000, 0.000000000000000000, 1.000000000000000000 ) ) ;
#12 = CIRCLE ( 'NONE', #19, 7.500000000000000000 ) ;
#13 = COORDINATED_UNIVERSAL_TIME_OFFSET ( 8, 0, .AHEAD. ) ;
#14 = APPROVAL_DATE_TIME ( #251, #48 ) ;
#15 = EDGE_CURVE ( 'NONE', #262, #160, #191, .T. ) ;
#16 = ORGANIZATION ( 'UNSPECIFIED', 'UNSPECIFIED', '' ) ;
#17 =( NAMED_UNIT ( * ) SI_UNIT ( $, .STERADIAN. ) SOLID_ANGLE_UNIT ( ) );
#18 = AXIS2_PLACEMENT_3D ( 'NONE', #88, #197, #298 ) ;
#19 = AXIS2_PLACEMENT_3D ( 'NONE', #7, #91, #246 ) ;
#20 = SECURITY_CLASSIFICATION ( '', '', #233 ) ;
#21 = ORIENTED_EDGE ( 'NONE', *, *, #152, .T. ) ;
#22 = AXIS2_PLACEMENT_3D ( 'NONE', #195, #216, #37 ) ;
#23 = EDGE_CURVE ( 'NONE', #75, #78, #273, .T. ) ;
#24 = EDGE_LOOP ( 'NONE', ( #313, #30, #156, #232 ) ) ;
#25 = DIRECTION ( 'NONE',  ( -1.000000000000000000, -0.000000000000000000, -0.000000000000000000 ) ) ;
#26 = AXIS2_PLACEMENT_3D ( 'NONE', #140, #8, #326 ) ;
#27 = EDGE_CURVE ( 'NONE', #262, #186, #162, .T. ) ;
#28 = CARTESIAN_POINT ( 'NONE',  ( 3.000000000000000000, 0.000000000000000000, 0.000000000000000000 ) ) ;
#29 = DIRECTION ( 'NONE',  ( -1.000000000000000000, -0.000000000000000000, -0.000000000000000000 ) ) ;
#30 = ORIENTED_EDGE ( 'NONE', *, *, #15, .T. ) ;
#31 = CARTESIAN_POINT ( 'NONE',  ( -3.000000000000000000, 0.000000000000000000, 0.000000000000000000 ) ) ;
#32 = CC_DESIGN_PERSON_AND_ORGANIZATION_ASSIGNMENT ( #206, #180, ( #20 ) ) ;
#33 = DIRECTION ( 'NONE',  ( -1.000000000000000000, -0.000000000000000000, -0.000000000000000000 ) ) ;
#34 = FACE_OUTER_BOUND ( 'NONE', #77, .T. ) ;
#35 = AXIS2_PLACEMENT_3D ( 'NONE', #3, #5, #314 ) ;
#36 = VECTOR ( 'NONE', #247, 1000.000000000000000 ) ;
#37 = DIRECTION ( 'NONE',  ( -0.000000000000000000, 0.000000000000000000, 1.000000000000000000 ) ) ;
#38 = CARTESIAN_POINT ( 'NONE',  ( -1.614212418857619014, 0.000000000000000000, 0.000000000000000000 ) ) ;
#39 = CARTESIAN_POINT ( 'NONE',  ( 0.5000000000000008882, 0.000000000000000000, 7.500000000000000000 ) ) ;
#40 = CYLINDRICAL_SURFACE ( 'NONE', #188, 12.69999999999999929 ) ;
#41 = CALENDAR_DATE ( 2021, 5, 1 ) ;
#42 = CARTESIAN_POINT ( 'NONE',  ( -0.5000000000000004441, 0.000000000000000000, 0.000000000000000000 ) ) ;
#43 = CIRCLE ( 'NONE', #35, 7.499999999999998224 ) ;
#44 = DATE_AND_TIME ( #202, #82 ) ;
#45 = CIRCLE ( 'NONE', #284, 7.499999999999997335 ) ;
#46 = DATE_AND_TIME ( #279, #335 ) ;
#47 = ORIENTED_EDGE ( 'NONE', *, *, #168, .T. ) ;
#48 = APPROVAL ( #331, 'UNSPECIFIED' ) ;
#49 = EDGE_LOOP ( 'NONE', ( #231, #317, #212, #102 ) ) ;
#50 = APPROVAL_STATUS ( 'not_yet_approved' ) ;
#51 = ORIENTED_EDGE ( 'NONE', *, *, #126, .T. ) ;
#52 = ORIENTED_EDGE ( 'NONE', *, *, #71, .T. ) ;
#53 = FACE_BOUND ( 'NONE', #259, .T. ) ;
#54 = ORIENTED_EDGE ( 'NONE', *, *, #178, .F. ) ;
#55 = CARTESIAN_POINT ( 'NONE',  ( -3.000000000000000000, 1.555301434917138433E-15, -12.69999999999999929 ) ) ;
#56 = VERTEX_POINT ( 'NONE', #86 ) ;
#57 = CARTESIAN_POINT ( 'NONE',  ( -0.5000000000000004441, 7.500000000000000000, 0.000000000000000000 ) ) ;
#58 = CARTESIAN_POINT ( 'NONE',  ( 0.5000000000000008882, 9.184850993605147944E-16, -7.500000000000000000 ) ) ;
#59 = APPLICATION_CONTEXT ( 'configuration controlled 3d designs of mechanical parts and assemblies' ) ;
#60 = PRODUCT_DEFINITION_FORMATION_WITH_SPECIFIED_SOURCE ( 'ANY', '', #70, .NOT_KNOWN. ) ;
#61 = DIRECTION ( 'NONE',  ( 0.000000000000000000, 0.000000000000000000, 1.000000000000000000 ) ) ;
#62 = DIRECTION ( 'NONE',  ( -1.000000000000000000, -0.000000000000000000, -0.000000000000000000 ) ) ;
#63 = DIRECTION ( 'NONE',  ( -1.000000000000000000, -0.000000000000000000, -0.000000000000000000 ) ) ;
#64 = DATE_TIME_ROLE ( 'creation_date' ) ;
#65 = DIRECTION ( 'NONE',  ( 0.000000000000000000, 0.000000000000000000, 1.000000000000000000 ) ) ;
#66 = CC_DESIGN_APPROVAL ( #306, ( #20 ) ) ;
#67 = CIRCLE ( 'NONE', #26, 7.500000000000000000 ) ;
#68 = CARTESIAN_POINT ( 'NONE',  ( -3.000000000000000000, 0.000000000000000000, 0.000000000000000000 ) ) ;
#69 = MECHANICAL_CONTEXT ( 'NONE', #59, 'mechanical' ) ;
#70 = PRODUCT ( 'QM-CAHWP-15-450-650-M', 'QM-CAHWP-15-450-650-M', '', ( #69 ) ) ;
#71 = EDGE_CURVE ( 'NONE', #105, #56, #45, .T. ) ;
#72 = APPROVAL_ROLE ( '' ) ;
#73 = PERSON_AND_ORGANIZATION ( #236, #16 ) ;
#74 = AXIS2_PLACEMENT_3D ( 'NONE', #97, #149, #118 ) ;
#75 = VERTEX_POINT ( 'NONE', #58 ) ;
#76 = CIRCLE ( 'NONE', #234, 12.69999999999999929 ) ;
#77 = EDGE_LOOP ( 'NONE', ( #21, #1, #100, #54 ) ) ;
#78 = VERTEX_POINT ( 'NONE', #39 ) ;
#79 = EDGE_CURVE ( 'NONE', #289, #132, #320, .T. ) ;
#80 = EDGE_LOOP ( 'NONE', ( #215, #193, #288, #51 ) ) ;
#81 = DIRECTION ( 'NONE',  ( 1.000000000000000000, 0.000000000000000000, 0.000000000000000000 ) ) ;
#82 = LOCAL_TIME ( 10, 34, 45.00000000000000000, #276 ) ;
#83 = EDGE_CURVE ( 'NONE', #208, #184, #109, .T. ) ;
#84 = EDGE_LOOP ( 'NONE', ( #333, #164 ) ) ;
#85 = CARTESIAN_POINT ( 'NONE',  ( 3.000000000000000000, 0.000000000000000000, 12.69999999999999929 ) ) ;
#86 = CARTESIAN_POINT ( 'NONE',  ( 3.000000000000000000, 9.184850993605144000E-16, -7.499999999999997335 ) ) ;
#87 = CARTESIAN_POINT ( 'NONE',  ( -1.614212418857619014, 0.000000000000000000, 0.000000000000000000 ) ) ;
#88 = CARTESIAN_POINT ( 'NONE',  ( 3.000000000000000000, 0.000000000000000000, 0.000000000000000000 ) ) ;
#89 = CARTESIAN_POINT ( 'NONE',  ( -1.614212418857619014, 0.000000000000000000, 7.499999999999998224 ) ) ;
#90 = PLANE ( 'NONE',  #22 ) ;
#91 = DIRECTION ( 'NONE',  ( -1.000000000000000000, -0.000000000000000000, -0.000000000000000000 ) ) ;
#92 = CALENDAR_DATE ( 2021, 5, 1 ) ;
#93 = CC_DESIGN_PERSON_AND_ORGANIZATION_ASSIGNMENT ( #223, #329, ( #60 ) ) ;
#94 = PLANE ( 'NONE',  #74 ) ;
#95 =( LENGTH_UNIT ( ) NAMED_UNIT ( * ) SI_UNIT ( .MILLI., .METRE. ) );
#96 = APPLICATION_CONTEXT ( 'configuration controlled 3d designs of mechanical parts and assemblies' ) ;
#97 = CARTESIAN_POINT ( 'NONE',  ( 3.000000000000000000, 12.69999999999999929, 0.000000000000000000 ) ) ;
#98 = EDGE_CURVE ( 'NONE', #56, #75, #322, .T. ) ;
#99 = AXIS2_PLACEMENT_3D ( 'NONE', #68, #274, #148 ) ;
#100 = ORIENTED_EDGE ( 'NONE', *, *, #115, .F. ) ;
#101 = ORIENTED_EDGE ( 'NONE', *, *, #15, .F. ) ;
#102 = ORIENTED_EDGE ( 'NONE', *, *, #157, .T. ) ;
#103 = EDGE_LOOP ( 'NONE', ( #153, #130 ) ) ;
#104 = LINE ( 'NONE', #321, #283 ) ;
#105 = VERTEX_POINT ( 'NONE', #220 ) ;
#106 = CARTESIAN_POINT ( 'NONE',  ( -0.5000000000000004441, 9.184850993605145972E-16, -7.499999999999998224 ) ) ;
#107 = VECTOR ( 'NONE', #165, 1000.000000000000000 ) ;
#108 = CC_DESIGN_DATE_AND_TIME_ASSIGNMENT ( #147, #64, ( #239 ) ) ;
#109 = LINE ( 'NONE', #269, #199 ) ;
#110 = DIRECTION ( 'NONE',  ( -1.000000000000000000, -0.000000000000000000, -0.000000000000000000 ) ) ;
#111 = CARTESIAN_POINT ( 'NONE',  ( -3.000000000000000000, 9.184850993605147944E-16, -7.500000000000000000 ) ) ;
#112 = DIRECTION ( 'NONE',  ( 0.000000000000000000, 0.000000000000000000, -1.000000000000000000 ) ) ;
#113 = DIRECTION ( 'NONE',  ( -1.000000000000000000, -0.000000000000000000, -0.000000000000000000 ) ) ;
#114 = FACE_OUTER_BOUND ( 'NONE', #49, .T. ) ;
#115 = EDGE_CURVE ( 'NONE', #127, #186, #76, .T. ) ;
#116 = CIRCLE ( 'NONE', #150, 12.69999999999999929 ) ;
#117 = CC_DESIGN_PERSON_AND_ORGANIZATION_ASSIGNMENT ( #280, #155, ( #60 ) ) ;
#118 = DIRECTION ( 'NONE',  ( -0.000000000000000000, 0.000000000000000000, 1.000000000000000000 ) ) ;
#119 = DESIGN_CONTEXT ( 'detailed design', #96, 'design' ) ;
#120 = PERSON_AND_ORGANIZATION_ROLE ( 'design_owner' ) ;
#121 = ADVANCED_FACE ( 'NONE', ( #142 ), #90, .F. ) ;
#122 = FACE_BOUND ( 'NONE', #235, .T. ) ;
#123 = FACE_OUTER_BOUND ( 'NONE', #159, .T. ) ;
#124 = LOCAL_TIME ( 10, 34, 45.00000000000000000, #254 ) ;
#125 = LOCAL_TIME ( 10, 34, 45.00000000000000000, #205 ) ;
#126 = EDGE_CURVE ( 'NONE', #78, #75, #67, .T. ) ;
#127 = VERTEX_POINT ( 'NONE', #295 ) ;
#128 = SHAPE_DEFINITION_REPRESENTATION ( #134, #181 ) ;
#129 = EDGE_LOOP ( 'NONE', ( #47, #211, #264, #334 ) ) ;
#130 = ORIENTED_EDGE ( 'NONE', *, *, #23, .F. ) ;
#131 = AXIS2_PLACEMENT_3D ( 'NONE', #213, #2, #291 ) ;
#132 = VERTEX_POINT ( 'NONE', #111 ) ;
#133 = CARTESIAN_POINT ( 'NONE',  ( -1.614212418857619014, 0.000000000000000000, 0.000000000000000000 ) ) ;
#134 = PRODUCT_DEFINITION_SHAPE ( 'NONE', 'NONE',  #239 ) ;
#135 = ORIENTED_EDGE ( 'NONE', *, *, #192, .F. ) ;
#136 = DIRECTION ( 'NONE',  ( 0.000000000000000000, 0.000000000000000000, 1.000000000000000000 ) ) ;
#137 = CARTESIAN_POINT ( 'NONE',  ( -1.614212418857619014, 9.184850993605145972E-16, -7.499999999999998224 ) ) ;
#138 = FACE_OUTER_BOUND ( 'NONE', #84, .T. ) ;
#139 = AXIS2_PLACEMENT_3D ( 'NONE', #299, #9, #265 ) ;
#140 = CARTESIAN_POINT ( 'NONE',  ( 0.5000000000000008882, 0.000000000000000000, 0.000000000000000000 ) ) ;
#141 = DIRECTION ( 'NONE',  ( 0.000000000000000000, 0.000000000000000000, 1.000000000000000000 ) ) ;
#142 = FACE_OUTER_BOUND ( 'NONE', #103, .T. ) ;
#143 = CARTESIAN_POINT ( 'NONE',  ( -1.614212418857619014, 0.000000000000000000, 0.000000000000000000 ) ) ;
#144 = EDGE_CURVE ( 'NONE', #56, #105, #260, .T. ) ;
#145 = DIRECTION ( 'NONE',  ( 1.000000000000000000, 0.000000000000000000, 0.000000000000000000 ) ) ;
#146 =( GEOMETRIC_REPRESENTATION_CONTEXT ( 3 ) GLOBAL_UNCERTAINTY_ASSIGNED_CONTEXT ( ( #252 ) ) GLOBAL_UNIT_ASSIGNED_CONTEXT ( ( #95, #304, #17 ) ) REPRESENTATION_CONTEXT ( 'NONE', 'WORKASPACE' ) );
#147 = DATE_AND_TIME ( #92, #124 ) ;
#148 = DIRECTION ( 'NONE',  ( 0.000000000000000000, 0.000000000000000000, 1.000000000000000000 ) ) ;
#149 = DIRECTION ( 'NONE',  ( -1.000000000000000000, 0.000000000000000000, -0.000000000000000000 ) ) ;
#150 = AXIS2_PLACEMENT_3D ( 'NONE', #169, #63, #249 ) ;
#151 = APPROVAL_DATE_TIME ( #44, #244 ) ;
#152 = EDGE_CURVE ( 'NONE', #160, #262, #116, .T. ) ;
#153 = ORIENTED_EDGE ( 'NONE', *, *, #126, .F. ) ;
#154 = CLOSED_SHELL ( 'NONE', ( #230, #287, #226, #121, #275, #281, #257, #300, #303, #203 ) ) ;
#155 = PERSON_AND_ORGANIZATION_ROLE ( 'design_supplier' ) ;
#156 = ORIENTED_EDGE ( 'NONE', *, *, #178, .T. ) ;
#157 = EDGE_CURVE ( 'NONE', #184, #132, #12, .T. ) ;
#158 = APPROVAL_DATE_TIME ( #46, #306 ) ;
#159 = EDGE_LOOP ( 'NONE', ( #258, #101 ) ) ;
#160 = VERTEX_POINT ( 'NONE', #85 ) ;
#161 = PLANE ( 'NONE',  #204 ) ;
#162 = LINE ( 'NONE', #240, #174 ) ;
#163 = DIRECTION ( 'NONE',  ( 0.000000000000000000, 0.000000000000000000, 1.000000000000000000 ) ) ;
#164 = ORIENTED_EDGE ( 'NONE', *, *, #319, .T. ) ;
#165 = DIRECTION ( 'NONE',  ( -1.000000000000000000, -0.000000000000000000, -0.000000000000000000 ) ) ;
#166 = DIRECTION ( 'NONE',  ( -1.000000000000000000, -0.000000000000000000, -0.000000000000000000 ) ) ;
#167 = CARTESIAN_POINT ( 'NONE',  ( -1.614212418857619014, 0.000000000000000000, 0.000000000000000000 ) ) ;
#168 = EDGE_CURVE ( 'NONE', #208, #289, #43, .T. ) ;
#169 = CARTESIAN_POINT ( 'NONE',  ( 3.000000000000000000, 0.000000000000000000, 0.000000000000000000 ) ) ;
#170 = DIRECTION ( 'NONE',  ( -1.000000000000000000, -0.000000000000000000, -0.000000000000000000 ) ) ;
#171 = PERSON_AND_ORGANIZATION ( #236, #16 ) ;
#172 = APPROVAL_ROLE ( '' ) ;
#173 = CC_DESIGN_APPROVAL ( #48, ( #60 ) ) ;
#174 = VECTOR ( 'NONE', #242, 1000.000000000000000 ) ;
#175 = APPROVAL_ROLE ( '' ) ;
#176 = CC_DESIGN_PERSON_AND_ORGANIZATION_ASSIGNMENT ( #177, #120, ( #70 ) ) ;
#177 = PERSON_AND_ORGANIZATION ( #236, #16 ) ;
#178 = EDGE_CURVE ( 'NONE', #160, #127, #104, .T. ) ;
#179 = VECTOR ( 'NONE', #166, 1000.000000000000000 ) ;
#180 = PERSON_AND_ORGANIZATION_ROLE ( 'classification_officer' ) ;
#181 = ADVANCED_BREP_SHAPE_REPRESENTATION ( 'QM-CAHWP-15-450-650-M', ( #316, #229 ), #146 ) ;
#182 = CC_DESIGN_PERSON_AND_ORGANIZATION_ASSIGNMENT ( #271, #328, ( #239 ) ) ;
#183 = AXIS2_PLACEMENT_3D ( 'NONE', #28, #25, #237 ) ;
#184 = VERTEX_POINT ( 'NONE', #221 ) ;
#185 = PRODUCT_RELATED_PRODUCT_CATEGORY ( 'detail', '', ( #70 ) ) ;
#186 = VERTEX_POINT ( 'NONE', #55 ) ;
#187 = ORIENTED_EDGE ( 'NONE', *, *, #144, .F. ) ;
#188 = AXIS2_PLACEMENT_3D ( 'NONE', #143, #248, #200 ) ;
#189 = ORIENTED_EDGE ( 'NONE', *, *, #330, .F. ) ;
#190 = CARTESIAN_POINT ( 'NONE',  ( 3.000000000000000000, 1.555301434917138433E-15, -12.69999999999999929 ) ) ;
#191 = CIRCLE ( 'NONE', #183, 12.69999999999999929 ) ;
#192 = EDGE_CURVE ( 'NONE', #105, #78, #290, .T. ) ;
#193 = ORIENTED_EDGE ( 'NONE', *, *, #71, .F. ) ;
#194 = CYLINDRICAL_SURFACE ( 'NONE', #139, 7.499999999999998224 ) ;
#195 = CARTESIAN_POINT ( 'NONE',  ( 0.5000000000000004441, 7.500000000000000000, 0.000000000000000000 ) ) ;
#196 = DIRECTION ( 'NONE',  ( -1.000000000000000000, -0.000000000000000000, -0.000000000000000000 ) ) ;
#197 = DIRECTION ( 'NONE',  ( -1.000000000000000000, -0.000000000000000000, -0.000000000000000000 ) ) ;
#198 = DIRECTION ( 'NONE',  ( 1.000000000000000000, 0.000000000000000000, 0.000000000000000000 ) ) ;
#199 = VECTOR ( 'NONE', #113, 1000.000000000000000 ) ;
#200 = DIRECTION ( 'NONE',  ( 0.000000000000000000, 0.000000000000000000, 1.000000000000000000 ) ) ;
#201 = APPLICATION_PROTOCOL_DEFINITION ( 'international standard', 'config_control_design', 1994, #59 ) ;
#202 = CALENDAR_DATE ( 2021, 5, 1 ) ;
#203 = ADVANCED_FACE ( 'NONE', ( #294 ), #161, .F. ) ;
#204 = AXIS2_PLACEMENT_3D ( 'NONE', #57, #198, #292 ) ;
#205 = COORDINATED_UNIVERSAL_TIME_OFFSET ( 8, 0, .AHEAD. ) ;
#206 = PERSON_AND_ORGANIZATION ( #236, #16 ) ;
#207 = CC_DESIGN_DATE_AND_TIME_ASSIGNMENT ( #285, #307, ( #20 ) ) ;
#208 = VERTEX_POINT ( 'NONE', #318 ) ;
#209 = APPROVAL_PERSON_ORGANIZATION ( #301, #244, #172 ) ;
#210 = CC_DESIGN_SECURITY_CLASSIFICATION ( #20, ( #60 ) ) ;
#211 = ORIENTED_EDGE ( 'NONE', *, *, #79, .T. ) ;
#212 = ORIENTED_EDGE ( 'NONE', *, *, #83, .T. ) ;
#213 = CARTESIAN_POINT ( 'NONE',  ( 0.5000000000000008882, 0.000000000000000000, 0.000000000000000000 ) ) ;
#214 = PLANE ( 'NONE',  #302 ) ;
#215 = ORIENTED_EDGE ( 'NONE', *, *, #98, .F. ) ;
#216 = DIRECTION ( 'NONE',  ( -1.000000000000000000, 0.000000000000000000, -0.000000000000000000 ) ) ;
#217 = DIRECTION ( 'NONE',  ( 0.000000000000000000, 0.000000000000000000, 1.000000000000000000 ) ) ;
#218 = CARTESIAN_POINT ( 'NONE',  ( -1.614212418857619014, 9.184850993605145972E-16, -7.499999999999998224 ) ) ;
#219 = FACE_OUTER_BOUND ( 'NONE', #129, .T. ) ;
#220 = CARTESIAN_POINT ( 'NONE',  ( 3.000000000000000000, 0.000000000000000000, 7.499999999999997335 ) ) ;
#221 = CARTESIAN_POINT ( 'NONE',  ( -3.000000000000000000, 0.000000000000000000, 7.500000000000000000 ) ) ;
#222 = AXIS2_PLACEMENT_3D ( 'NONE', #38, #170, #141 ) ;
#223 = PERSON_AND_ORGANIZATION ( #236, #16 ) ;
#224 = APPROVAL_STATUS ( 'not_yet_approved' ) ;
#225 = AXIS2_PLACEMENT_3D ( 'NONE', #167, #62, #217 ) ;
#226 = ADVANCED_FACE ( 'NONE', ( #327 ), #194, .F. ) ;
#227 = APPLICATION_PROTOCOL_DEFINITION ( 'international standard', 'config_control_design', 1994, #96 ) ;
#228 = DIRECTION ( 'NONE',  ( 0.000000000000000000, 0.000000000000000000, -1.000000000000000000 ) ) ;
#229 = AXIS2_PLACEMENT_3D ( 'NONE', #277, #65, #332 ) ;
#230 = ADVANCED_FACE ( 'NONE', ( #34 ), #263, .T. ) ;
#231 = ORIENTED_EDGE ( 'NONE', *, *, #79, .F. ) ;
#232 = ORIENTED_EDGE ( 'NONE', *, *, #319, .F. ) ;
#233 = SECURITY_CLASSIFICATION_LEVEL ( 'unclassified' ) ;
#234 = AXIS2_PLACEMENT_3D ( 'NONE', #245, #267, #61 ) ;
#235 = EDGE_LOOP ( 'NONE', ( #52, #255 ) ) ;
#236 = PERSON ( 'UNSPECIFIED', 'UNSPECIFIED', 'UNSPECIFIED', ('UNSPECIFIED'), ('UNSPECIFIED'), ('UNSPECIFIED') ) ;
#237 = DIRECTION ( 'NONE',  ( 0.000000000000000000, 0.000000000000000000, 1.000000000000000000 ) ) ;
#238 = DIRECTION ( 'NONE',  ( -1.000000000000000000, -0.000000000000000000, -0.000000000000000000 ) ) ;
#239 = PRODUCT_DEFINITION ( 'UNKNOWN', '', #60, #119 ) ;
#240 = CARTESIAN_POINT ( 'NONE',  ( -1.614212418857619014, 1.555301434917138433E-15, -12.69999999999999929 ) ) ;
#241 = FACE_OUTER_BOUND ( 'NONE', #80, .T. ) ;
#242 = DIRECTION ( 'NONE',  ( -1.000000000000000000, -0.000000000000000000, -0.000000000000000000 ) ) ;
#243 = CARTESIAN_POINT ( 'NONE',  ( -3.000000000000000000, 7.500000000000000000, 0.000000000000000000 ) ) ;
#244 = APPROVAL ( #224, 'UNSPECIFIED' ) ;
#245 = CARTESIAN_POINT ( 'NONE',  ( -3.000000000000000000, 0.000000000000000000, 0.000000000000000000 ) ) ;
#246 = DIRECTION ( 'NONE',  ( 0.000000000000000000, 0.000000000000000000, 1.000000000000000000 ) ) ;
#247 = DIRECTION ( 'NONE',  ( -1.000000000000000000, -0.000000000000000000, -0.000000000000000000 ) ) ;
#248 = DIRECTION ( 'NONE',  ( -1.000000000000000000, -0.000000000000000000, -0.000000000000000000 ) ) ;
#249 = DIRECTION ( 'NONE',  ( 0.000000000000000000, 0.000000000000000000, 1.000000000000000000 ) ) ;
#250 = AXIS2_PLACEMENT_3D ( 'NONE', #133, #238, #136 ) ;
#251 = DATE_AND_TIME ( #41, #315 ) ;
#252 = UNCERTAINTY_MEASURE_WITH_UNIT (LENGTH_MEASURE( 1.000000000000000082E-05 ), #95, 'distance_accuracy_value', 'NONE');
#253 = CIRCLE ( 'NONE', #309, 7.500000000000000000 ) ;
#254 = COORDINATED_UNIVERSAL_TIME_OFFSET ( 8, 0, .AHEAD. ) ;
#255 = ORIENTED_EDGE ( 'NONE', *, *, #144, .T. ) ;
#256 = AXIS2_PLACEMENT_3D ( 'NONE', #42, #145, #228 ) ;
#257 = ADVANCED_FACE ( 'NONE', ( #53, #138 ), #214, .F. ) ;
#258 = ORIENTED_EDGE ( 'NONE', *, *, #152, .F. ) ;
#259 = EDGE_LOOP ( 'NONE', ( #308, #293 ) ) ;
#260 = CIRCLE ( 'NONE', #18, 7.499999999999997335 ) ;
#261 = ORIENTED_EDGE ( 'NONE', *, *, #23, .T. ) ;
#262 = VERTEX_POINT ( 'NONE', #190 ) ;
#263 = CYLINDRICAL_SURFACE ( 'NONE', #225, 12.69999999999999929 ) ;
#264 = ORIENTED_EDGE ( 'NONE', *, *, #282, .T. ) ;
#265 = DIRECTION ( 'NONE',  ( 0.000000000000000000, 0.000000000000000000, 1.000000000000000000 ) ) ;
#266 = CIRCLE ( 'NONE', #99, 12.69999999999999929 ) ;
#267 = DIRECTION ( 'NONE',  ( -1.000000000000000000, -0.000000000000000000, -0.000000000000000000 ) ) ;
#268 = CYLINDRICAL_SURFACE ( 'NONE', #222, 7.499999999999998224 ) ;
#269 = CARTESIAN_POINT ( 'NONE',  ( -1.614212418857619014, 0.000000000000000000, 7.499999999999998224 ) ) ;
#270 = CYLINDRICAL_SURFACE ( 'NONE', #250, 7.499999999999998224 ) ;
#271 = PERSON_AND_ORGANIZATION ( #236, #16 ) ;
#272 = CC_DESIGN_APPROVAL ( #244, ( #239 ) ) ;
#273 = CIRCLE ( 'NONE', #131, 7.500000000000000000 ) ;
#274 = DIRECTION ( 'NONE',  ( -1.000000000000000000, -0.000000000000000000, -0.000000000000000000 ) ) ;
#275 = ADVANCED_FACE ( 'NONE', ( #241 ), #296, .F. ) ;
#276 = COORDINATED_UNIVERSAL_TIME_OFFSET ( 8, 0, .AHEAD. ) ;
#277 = CARTESIAN_POINT ( 'NONE',  ( 0.000000000000000000, 0.000000000000000000, 0.000000000000000000 ) ) ;
#278 = AXIS2_PLACEMENT_3D ( 'NONE', #87, #196, #163 ) ;
#279 = CALENDAR_DATE ( 2021, 5, 1 ) ;
#280 = PERSON_AND_ORGANIZATION ( #236, #16 ) ;
#281 = ADVANCED_FACE ( 'NONE', ( #114 ), #268, .F. ) ;
#282 = EDGE_CURVE ( 'NONE', #132, #184, #253, .T. ) ;
#283 = VECTOR ( 'NONE', #110, 1000.000000000000000 ) ;
#284 = AXIS2_PLACEMENT_3D ( 'NONE', #6, #33, #10 ) ;
#285 = DATE_AND_TIME ( #305, #125 ) ;
#286 = EDGE_LOOP ( 'NONE', ( #311, #189 ) ) ;
#287 = ADVANCED_FACE ( 'NONE', ( #219 ), #270, .F. ) ;
#288 = ORIENTED_EDGE ( 'NONE', *, *, #192, .T. ) ;
#289 = VERTEX_POINT ( 'NONE', #106 ) ;
#290 = LINE ( 'NONE', #89, #107 ) ;
#291 = DIRECTION ( 'NONE',  ( 0.000000000000000000, 0.000000000000000000, 1.000000000000000000 ) ) ;
#292 = DIRECTION ( 'NONE',  ( 0.000000000000000000, 0.000000000000000000, -1.000000000000000000 ) ) ;
#293 = ORIENTED_EDGE ( 'NONE', *, *, #282, .F. ) ;
#294 = FACE_OUTER_BOUND ( 'NONE', #286, .T. ) ;
#295 = CARTESIAN_POINT ( 'NONE',  ( -3.000000000000000000, 0.000000000000000000, 12.69999999999999929 ) ) ;
#296 = CYLINDRICAL_SURFACE ( 'NONE', #278, 7.499999999999998224 ) ;
#297 = APPROVAL_PERSON_ORGANIZATION ( #171, #48, #175 ) ;
#298 = DIRECTION ( 'NONE',  ( 0.000000000000000000, 0.000000000000000000, 1.000000000000000000 ) ) ;
#299 = CARTESIAN_POINT ( 'NONE',  ( -1.614212418857619014, 0.000000000000000000, 0.000000000000000000 ) ) ;
#300 = ADVANCED_FACE ( 'NONE', ( #323 ), #40, .T. ) ;
#301 = PERSON_AND_ORGANIZATION ( #236, #16 ) ;
#302 = AXIS2_PLACEMENT_3D ( 'NONE', #243, #81, #112 ) ;
#303 = ADVANCED_FACE ( 'NONE', ( #123, #122 ), #94, .F. ) ;
#304 =( NAMED_UNIT ( * ) PLANE_ANGLE_UNIT ( ) SI_UNIT ( $, .RADIAN. ) );
#305 = CALENDAR_DATE ( 2021, 5, 1 ) ;
#306 = APPROVAL ( #50, 'UNSPECIFIED' ) ;
#307 = DATE_TIME_ROLE ( 'classification_date' ) ;
#308 = ORIENTED_EDGE ( 'NONE', *, *, #157, .F. ) ;
#309 = AXIS2_PLACEMENT_3D ( 'NONE', #31, #29, #11 ) ;
#310 = COORDINATED_UNIVERSAL_TIME_OFFSET ( 8, 0, .AHEAD. ) ;
#311 = ORIENTED_EDGE ( 'NONE', *, *, #168, .F. ) ;
#312 = EDGE_LOOP ( 'NONE', ( #187, #4, #261, #135 ) ) ;
#313 = ORIENTED_EDGE ( 'NONE', *, *, #27, .F. ) ;
#314 = DIRECTION ( 'NONE',  ( 0.000000000000000000, 0.000000000000000000, -1.000000000000000000 ) ) ;
#315 = LOCAL_TIME ( 10, 34, 45.00000000000000000, #13 ) ;
#316 = MANIFOLD_SOLID_BREP ( 'Ðý×', #154 ) ;
#317 = ORIENTED_EDGE ( 'NONE', *, *, #330, .T. ) ;
#318 = CARTESIAN_POINT ( 'NONE',  ( -0.5000000000000004441, 0.000000000000000000, 7.499999999999998224 ) ) ;
#319 = EDGE_CURVE ( 'NONE', #186, #127, #266, .T. ) ;
#320 = LINE ( 'NONE', #218, #179 ) ;
#321 = CARTESIAN_POINT ( 'NONE',  ( -1.614212418857619014, 0.000000000000000000, 12.69999999999999929 ) ) ;
#322 = LINE ( 'NONE', #137, #36 ) ;
#323 = FACE_OUTER_BOUND ( 'NONE', #24, .T. ) ;
#324 = CIRCLE ( 'NONE', #256, 7.499999999999998224 ) ;
#325 = APPROVAL_PERSON_ORGANIZATION ( #73, #306, #72 ) ;
#326 = DIRECTION ( 'NONE',  ( 0.000000000000000000, 0.000000000000000000, 1.000000000000000000 ) ) ;
#327 = FACE_OUTER_BOUND ( 'NONE', #312, .T. ) ;
#328 = PERSON_AND_ORGANIZATION_ROLE ( 'creator' ) ;
#329 = PERSON_AND_ORGANIZATION_ROLE ( 'creator' ) ;
#330 = EDGE_CURVE ( 'NONE', #289, #208, #324, .T. ) ;
#331 = APPROVAL_STATUS ( 'not_yet_approved' ) ;
#332 = DIRECTION ( 'NONE',  ( 1.000000000000000000, 0.000000000000000000, 0.000000000000000000 ) ) ;
#333 = ORIENTED_EDGE ( 'NONE', *, *, #115, .T. ) ;
#334 = ORIENTED_EDGE ( 'NONE', *, *, #83, .F. ) ;
#335 = LOCAL_TIME ( 10, 34, 45.00000000000000000, #310 ) ;
ENDSEC;
END-ISO-10303-21;
